Home   | About   | Contact  | Lyrics  | Tabs  | Forum

The Igloo

Go Back   The Igloo > Damien Rice > Musician Stuff

Reply
 
Thread Tools Display Modes
Old 10-23-2003, 06:49 AM   #1
neil_eats
Eskimo Regular
 
Join Date: Sep 2003
Location: United Kingdom
Posts: 500
Default

<TABLE cellSpacing=1 cellPadding=3 width="100%">
<T>
<TR>
<TD class=text vAlign=top background="" bgColor=#fefefc>


E :--0--------------|-0---------------|-0---------------|
B :1-1--------------|-1---------------|-1---------------|
G :0-2--------------|-2---------------|-2---------------|
D :0-2---2---10----9|-2---2---10-----9|-2---2---10-----9|
A :--0--------------|-0---------------|-0---------------|
E :-----------------|-----------------|-----------------|


E :-0---0-0--------|-----------------|-----------------|
B :-1---1-1--------|-----------------|-----------------|
G :-2---2-2--------|-----------------|-----------------|
D :-2---2-2--------|-----------------|-3---------------|
A :-0---0-0--------|-----3---10-----8|-3---3---10-----8|
E :---------3-3-3-3|-1---------------|-1---------------|


E :----------------|
B :----------------|
G :----------------|
D :-3--------------|
A :-3--------------|
E :-1--------------|</TD></TR>
<TR>
<TD background="" bgColor=#fefefc></TD>
<TD class=text background="" bgColor=#fefefc></TD></TR></T></TABLE>
neil_eats is offline   Reply With Quote
Reply

Thread Tools
Display Modes

Posting Rules
You may not post new threads
You may not post replies
You may not post attachments
You may not edit your posts

BB code is On
Smilies are On
[IMG] code is On
HTML code is Off
Forum Jump


All times are GMT. The time now is 05:39 PM.


Powered by vBulletin® Version 3.7.4
Copyright ©2000 - 2021, Jelsoft Enterprises Ltd.
All content copyright EskimoFriends.com 2002-today. Special thanks to Damien, Lisa, Tomo, Shane & Vyvienne.